ISO-10303-21;
HEADER;
FILE_DESCRIPTION (( 'STEP AP203' ),
    '1' );
FILE_NAME ('Q-AZHWP-20-488-M.STEP',
    '2020-12-22T09:08:31',
    ( '' ),
    ( '' ),
    'SwSTEP 2.0',
    'SolidWorks 2020',
    '' );
FILE_SCHEMA (( 'CONFIG_CONTROL_DESIGN' ));
ENDSEC;

DATA;
#1 = EDGE_LOOP ( 'NONE', ( #206, #319 ) ) ;
#2 = FACE_OUTER_BOUND ( 'NONE', #96, .T. ) ;
#3 = DATE_AND_TIME ( #212, #37 ) ;
#4 = DIRECTION ( 'NONE',  ( 0.000000000000000000, 0.000000000000000000, 1.000000000000000000 ) ) ;
#5 = AXIS2_PLACEMENT_3D ( 'NONE', #169, #8, #36 ) ;
#6 = DIRECTION ( 'NONE',  ( 0.000000000000000000, 0.000000000000000000, 1.000000000000000000 ) ) ;
#7 = APPROVAL_DATE_TIME ( #11, #247 ) ;
#8 = DIRECTION ( 'NONE',  ( -1.000000000000000000, -0.000000000000000000, -0.000000000000000000 ) ) ;
#9 = CC_DESIGN_APPROVAL ( #150, ( #61 ) ) ;
#10 = FACE_OUTER_BOUND ( 'NONE', #335, .T. ) ;
#11 = DATE_AND_TIME ( #272, #234 ) ;
#12 = FACE_OUTER_BOUND ( 'NONE', #218, .T. ) ;
#13 = CARTESIAN_POINT ( 'NONE',  ( -1.614212418857619014, 0.000000000000000000, 12.69999999999999929 ) ) ;
#14 = EDGE_CURVE ( 'NONE', #54, #52, #49, .T. ) ;
#15 = ORIENTED_EDGE ( 'NONE', *, *, #170, .T. ) ;
#16 = FACE_OUTER_BOUND ( 'NONE', #312, .T. ) ;
#17 = ADVANCED_FACE ( 'NONE', ( #2 ), #105, .F. ) ;
#18 = ORIENTED_EDGE ( 'NONE', *, *, #164, .T. ) ;
#19 = EDGE_CURVE ( 'NONE', #112, #269, #77, .T. ) ;
#20 = CARTESIAN_POINT ( 'NONE',  ( -3.000000000000000444, 0.000000000000000000, 0.000000000000000000 ) ) ;
#21 = DIRECTION ( 'NONE',  ( -1.000000000000000000, -0.000000000000000000, -0.000000000000000000 ) ) ;
#22 = AXIS2_PLACEMENT_3D ( 'NONE', #232, #305, #145 ) ;
#23 = DIRECTION ( 'NONE',  ( 0.000000000000000000, 0.000000000000000000, 1.000000000000000000 ) ) ;
#24 =( NAMED_UNIT ( * ) SI_UNIT ( $, .STERADIAN. ) SOLID_ANGLE_UNIT ( ) );
#25 = ORIENTED_EDGE ( 'NONE', *, *, #255, .T. ) ;
#26 = APPROVAL_DATE_TIME ( #97, #178 ) ;
#27 = DIRECTION ( 'NONE',  ( -1.000000000000000000, -0.000000000000000000, -0.000000000000000000 ) ) ;
#28 = APPLICATION_CONTEXT ( 'configuration controlled 3d designs of mechanical parts and assemblies' ) ;
#29 = LOCAL_TIME ( 17, 8, 31.00000000000000000, #293 ) ;
#30 = DIRECTION ( 'NONE',  ( -1.000000000000000000, -0.000000000000000000, -0.000000000000000000 ) ) ;
#31 = PERSON_AND_ORGANIZATION_ROLE ( 'design_supplier' ) ;
#32 = APPROVAL_ROLE ( '' ) ;
#33 = LOCAL_TIME ( 17, 8, 31.00000000000000000, #133 ) ;
#34 = PLANE ( 'NONE',  #79 ) ;
#35 = EDGE_CURVE ( 'NONE', #290, #181, #298, .T. ) ;
#36 = DIRECTION ( 'NONE',  ( 0.000000000000000000, 0.000000000000000000, 1.000000000000000000 ) ) ;
#37 = LOCAL_TIME ( 17, 8, 31.00000000000000000, #152 ) ;
#38 = CARTESIAN_POINT ( 'NONE',  ( -3.000000000000000444, 0.000000000000000000, 0.000000000000000000 ) ) ;
#39 = CYLINDRICAL_SURFACE ( 'NONE', #5, 12.69999999999999929 ) ;
#40 = EDGE_CURVE ( 'NONE', #290, #146, #320, .T. ) ;
#41 = ORIENTED_EDGE ( 'NONE', *, *, #156, .T. ) ;
#42 = VECTOR ( 'NONE', #30, 1000.000000000000000 ) ;
#43 = PRODUCT_DEFINITION_SHAPE ( 'NONE', 'NONE',  #216 ) ;
#44 = AXIS2_PLACEMENT_3D ( 'NONE', #261, #295, #160 ) ;
#45 = CARTESIAN_POINT ( 'NONE',  ( 2.500000000000000444, 10.00000000000000000, 0.000000000000000000 ) ) ;
#46 = DIRECTION ( 'NONE',  ( 0.000000000000000000, 0.000000000000000000, 1.000000000000000000 ) ) ;
#47 = CARTESIAN_POINT ( 'NONE',  ( -2.500000000000000444, 0.000000000000000000, 10.00000000000000000 ) ) ;
#48 = CC_DESIGN_DATE_AND_TIME_ASSIGNMENT ( #129, #80, ( #216 ) ) ;
#49 = CIRCLE ( 'NONE', #171, 12.69999999999999929 ) ;
#50 = CARTESIAN_POINT ( 'NONE',  ( -1.614212418857619014, 0.000000000000000000, 0.000000000000000000 ) ) ;
#51 = PERSON_AND_ORGANIZATION_ROLE ( 'classification_officer' ) ;
#52 = VERTEX_POINT ( 'NONE', #296 ) ;
#53 = PERSON_AND_ORGANIZATION_ROLE ( 'design_owner' ) ;
#54 = VERTEX_POINT ( 'NONE', #294 ) ;
#55 = ORIENTED_EDGE ( 'NONE', *, *, #56, .F. ) ;
#56 = EDGE_CURVE ( 'NONE', #269, #112, #219, .T. ) ;
#57 = APPROVAL_PERSON_ORGANIZATION ( #288, #247, #104 ) ;
#58 = COORDINATED_UNIVERSAL_TIME_OFFSET ( 8, 0, .AHEAD. ) ;
#59 = ORIENTED_EDGE ( 'NONE', *, *, #260, .F. ) ;
#60 = LINE ( 'NONE', #249, #248 ) ;
#61 = PRODUCT_DEFINITION_FORMATION_WITH_SPECIFIED_SOURCE ( 'ANY', '', #311, .NOT_KNOWN. ) ;
#62 = DIRECTION ( 'NONE',  ( 0.000000000000000000, 0.000000000000000000, -1.000000000000000000 ) ) ;
#63 = CARTESIAN_POINT ( 'NONE',  ( -3.000000000000000000, 0.000000000000000000, 12.69999999999999929 ) ) ;
#64 = CARTESIAN_POINT ( 'NONE',  ( 3.000000000000000000, 0.000000000000000000, 0.000000000000000000 ) ) ;
#65 = CYLINDRICAL_SURFACE ( 'NONE', #22, 10.00000000000000000 ) ;
#66 = ORIENTED_EDGE ( 'NONE', *, *, #213, .T. ) ;
#67 = PLANE ( 'NONE',  #291 ) ;
#68 = CARTESIAN_POINT ( 'NONE',  ( 2.500000000000000888, 0.000000000000000000, 10.00000000000000000 ) ) ;
#69 = ADVANCED_FACE ( 'NONE', ( #86 ), #138, .F. ) ;
#70 = APPROVAL_ROLE ( '' ) ;
#71 = EDGE_CURVE ( 'NONE', #52, #115, #175, .T. ) ;
#72 = PERSON_AND_ORGANIZATION_ROLE ( 'creator' ) ;
#73 = ORIENTED_EDGE ( 'NONE', *, *, #40, .T. ) ;
#74 = CC_DESIGN_DATE_AND_TIME_ASSIGNMENT ( #3, #190, ( #193 ) ) ;
#75 = AXIS2_PLACEMENT_3D ( 'NONE', #244, #100, #4 ) ;
#76 = PERSON_AND_ORGANIZATION ( #324, #310 ) ;
#77 = CIRCLE ( 'NONE', #75, 10.00000000000000000 ) ;
#78 = CARTESIAN_POINT ( 'NONE',  ( -1.614212418857619014, 0.000000000000000000, 0.000000000000000000 ) ) ;
#79 = AXIS2_PLACEMENT_3D ( 'NONE', #136, #139, #172 ) ;
#80 = DATE_TIME_ROLE ( 'creation_date' ) ;
#81 = DIRECTION ( 'NONE',  ( 0.000000000000000000, 0.000000000000000000, -1.000000000000000000 ) ) ;
#82 = FACE_OUTER_BOUND ( 'NONE', #315, .T. ) ;
#83 = CIRCLE ( 'NONE', #159, 12.69999999999999929 ) ;
#84 = DIRECTION ( 'NONE',  ( -1.000000000000000000, -0.000000000000000000, -0.000000000000000000 ) ) ;
#85 = CARTESIAN_POINT ( 'NONE',  ( -1.614212418857619014, 1.555301434917138433E-15, -12.69999999999999929 ) ) ;
#86 = FACE_OUTER_BOUND ( 'NONE', #235, .T. ) ;
#87 = APPLICATION_CONTEXT ( 'configuration controlled 3d designs of mechanical parts and assemblies' ) ;
#88 = CIRCLE ( 'NONE', #239, 12.69999999999999929 ) ;
#89 = CC_DESIGN_PERSON_AND_ORGANIZATION_ASSIGNMENT ( #243, #51, ( #193 ) ) ;
#90 = DIRECTION ( 'NONE',  ( 0.000000000000000000, 0.000000000000000000, 1.000000000000000000 ) ) ;
#91 = DIRECTION ( 'NONE',  ( -1.000000000000000000, -0.000000000000000000, -0.000000000000000000 ) ) ;
#92 = AXIS2_PLACEMENT_3D ( 'NONE', #20, #149, #95 ) ;
#93 = CARTESIAN_POINT ( 'NONE',  ( 2.999999999999999112, 12.69999999999999929, 0.000000000000000000 ) ) ;
#94 = ORIENTED_EDGE ( 'NONE', *, *, #322, .F. ) ;
#95 = DIRECTION ( 'NONE',  ( 0.000000000000000000, 0.000000000000000000, 1.000000000000000000 ) ) ;
#96 = EDGE_LOOP ( 'NONE', ( #187, #224, #210, #144 ) ) ;
#97 = DATE_AND_TIME ( #268, #329 ) ;
#98 = DESIGN_CONTEXT ( 'detailed design', #87, 'design' ) ;
#99 = DATE_AND_TIME ( #241, #29 ) ;
#100 = DIRECTION ( 'NONE',  ( -1.000000000000000000, -0.000000000000000000, -0.000000000000000000 ) ) ;
#101 = APPLICATION_PROTOCOL_DEFINITION ( 'international standard', 'config_control_design', 1994, #87 ) ;
#102 = ORIENTED_EDGE ( 'NONE', *, *, #255, .F. ) ;
#103 = CC_DESIGN_PERSON_AND_ORGANIZATION_ASSIGNMENT ( #192, #72, ( #216 ) ) ;
#104 = APPROVAL_ROLE ( '' ) ;
#105 = CYLINDRICAL_SURFACE ( 'NONE', #286, 10.00000000000000000 ) ;
#106 = EDGE_LOOP ( 'NONE', ( #185, #148, #94, #123 ) ) ;
#107 = CARTESIAN_POINT ( 'NONE',  ( -1.614212418857619014, 0.000000000000000000, 0.000000000000000000 ) ) ;
#108 = CIRCLE ( 'NONE', #307, 10.00000000000000000 ) ;
#109 = AXIS2_PLACEMENT_3D ( 'NONE', #200, #227, #62 ) ;
#110 = DIRECTION ( 'NONE',  ( 0.000000000000000000, 0.000000000000000000, 1.000000000000000000 ) ) ;
#111 = CYLINDRICAL_SURFACE ( 'NONE', #318, 10.00000000000000000 ) ;
#112 = VERTEX_POINT ( 'NONE', #271 ) ;
#113 = DIRECTION ( 'NONE',  ( 1.000000000000000000, 0.000000000000000000, 0.000000000000000000 ) ) ;
#114 = DIRECTION ( 'NONE',  ( -0.000000000000000000, 0.000000000000000000, 1.000000000000000000 ) ) ;
#115 = VERTEX_POINT ( 'NONE', #63 ) ;
#116 = FACE_BOUND ( 'NONE', #321, .T. ) ;
#117 = AXIS2_PLACEMENT_3D ( 'NONE', #242, #165, #162 ) ;
#118 = AXIS2_PLACEMENT_3D ( 'NONE', #38, #142, #90 ) ;
#119 = DIRECTION ( 'NONE',  ( 0.000000000000000000, 0.000000000000000000, 1.000000000000000000 ) ) ;
#120 = DIRECTION ( 'NONE',  ( 0.000000000000000000, 0.000000000000000000, 1.000000000000000000 ) ) ;
#121 = ORIENTED_EDGE ( 'NONE', *, *, #168, .F. ) ;
#122 = VECTOR ( 'NONE', #330, 1000.000000000000000 ) ;
#123 = ORIENTED_EDGE ( 'NONE', *, *, #71, .F. ) ;
#124 = PRODUCT_RELATED_PRODUCT_CATEGORY ( 'detail', '', ( #311 ) ) ;
#125 = APPROVAL_STATUS ( 'not_yet_approved' ) ;
#126 = ADVANCED_FACE ( 'NONE', ( #277 ), #39, .T. ) ;
#127 = APPROVAL_PERSON_ORGANIZATION ( #163, #150, #70 ) ;
#128 = DIRECTION ( 'NONE',  ( 0.000000000000000000, 0.000000000000000000, 1.000000000000000000 ) ) ;
#129 = DATE_AND_TIME ( #154, #33 ) ;
#130 = CARTESIAN_POINT ( 'NONE',  ( 3.000000000000000000, 0.000000000000000000, 0.000000000000000000 ) ) ;
#131 = SECURITY_CLASSIFICATION_LEVEL ( 'unclassified' ) ;
#132 = CLOSED_SHELL ( 'NONE', ( #233, #17, #211, #285, #253, #69, #137, #126, #228, #174 ) ) ;
#133 = COORDINATED_UNIVERSAL_TIME_OFFSET ( 8, 0, .AHEAD. ) ;
#134 = ORIENTED_EDGE ( 'NONE', *, *, #71, .T. ) ;
#135 = CIRCLE ( 'NONE', #118, 10.00000000000000000 ) ;
#136 = CARTESIAN_POINT ( 'NONE',  ( -2.500000000000000444, 10.00000000000000000, 0.000000000000000000 ) ) ;
#137 = ADVANCED_FACE ( 'NONE', ( #323, #82 ), #303, .F. ) ;
#138 = CYLINDRICAL_SURFACE ( 'NONE', #279, 10.00000000000000000 ) ;
#139 = DIRECTION ( 'NONE',  ( 1.000000000000000000, 0.000000000000000000, 0.000000000000000000 ) ) ;
#140 = AXIS2_PLACEMENT_3D ( 'NONE', #197, #113, #325 ) ;
#141 = AXIS2_PLACEMENT_3D ( 'NONE', #64, #331, #120 ) ;
#142 = DIRECTION ( 'NONE',  ( -1.000000000000000000, -0.000000000000000000, -0.000000000000000000 ) ) ;
#143 = DIRECTION ( 'NONE',  ( 0.000000000000000000, 0.000000000000000000, 1.000000000000000000 ) ) ;
#144 = ORIENTED_EDGE ( 'NONE', *, *, #40, .F. ) ;
#145 = DIRECTION ( 'NONE',  ( 0.000000000000000000, 0.000000000000000000, 1.000000000000000000 ) ) ;
#146 = VERTEX_POINT ( 'NONE', #300 ) ;
#147 = CARTESIAN_POINT ( 'NONE',  ( -3.000000000000000444, 1.224646799147353256E-15, -10.00000000000000000 ) ) ;
#148 = ORIENTED_EDGE ( 'NONE', *, *, #180, .T. ) ;
#149 = DIRECTION ( 'NONE',  ( -1.000000000000000000, -0.000000000000000000, -0.000000000000000000 ) ) ;
#150 = APPROVAL ( #245, 'UNSPECIFIED' ) ;
#151 = ORIENTED_EDGE ( 'NONE', *, *, #56, .T. ) ;
#152 = COORDINATED_UNIVERSAL_TIME_OFFSET ( 8, 0, .AHEAD. ) ;
#153 = DIRECTION ( 'NONE',  ( -1.000000000000000000, -0.000000000000000000, -0.000000000000000000 ) ) ;
#154 = CALENDAR_DATE ( 2020, 22, 12 ) ;
#155 = ORIENTED_EDGE ( 'NONE', *, *, #213, .F. ) ;
#156 = EDGE_CURVE ( 'NONE', #262, #256, #108, .T. ) ;
#157 = EDGE_LOOP ( 'NONE', ( #102, #55, #229, #214 ) ) ;
#158 = VECTOR ( 'NONE', #250, 1000.000000000000000 ) ;
#159 = AXIS2_PLACEMENT_3D ( 'NONE', #258, #21, #119 ) ;
#160 = DIRECTION ( 'NONE',  ( 1.000000000000000000, 0.000000000000000000, 0.000000000000000000 ) ) ;
#161 = VECTOR ( 'NONE', #276, 1000.000000000000000 ) ;
#162 = DIRECTION ( 'NONE',  ( 0.000000000000000000, 0.000000000000000000, 1.000000000000000000 ) ) ;
#163 = PERSON_AND_ORGANIZATION ( #324, #310 ) ;
#164 = EDGE_CURVE ( 'NONE', #181, #290, #309, .T. ) ;
#165 = DIRECTION ( 'NONE',  ( -1.000000000000000000, -0.000000000000000000, -0.000000000000000000 ) ) ;
#166 = DIRECTION ( 'NONE',  ( -1.000000000000000000, -0.000000000000000000, -0.000000000000000000 ) ) ;
#167 = CIRCLE ( 'NONE', #92, 10.00000000000000000 ) ;
#168 = EDGE_CURVE ( 'NONE', #269, #256, #199, .T. ) ;
#169 = CARTESIAN_POINT ( 'NONE',  ( -1.614212418857619014, 0.000000000000000000, 0.000000000000000000 ) ) ;
#170 = EDGE_CURVE ( 'NONE', #194, #115, #88, .T. ) ;
#171 = AXIS2_PLACEMENT_3D ( 'NONE', #130, #153, #6 ) ;
#172 = DIRECTION ( 'NONE',  ( 0.000000000000000000, 0.000000000000000000, -1.000000000000000000 ) ) ;
#173 =( GEOMETRIC_REPRESENTATION_CONTEXT ( 3 ) GLOBAL_UNCERTAINTY_ASSIGNED_CONTEXT ( ( #182 ) ) GLOBAL_UNIT_ASSIGNED_CONTEXT ( ( #208, #254, #24 ) ) REPRESENTATION_CONTEXT ( 'NONE', 'WORKASPACE' ) );
#174 = ADVANCED_FACE ( 'NONE', ( #10 ), #34, .F. ) ;
#175 = LINE ( 'NONE', #13, #122 ) ;
#176 = PLANE ( 'NONE',  #188 ) ;
#177 = LINE ( 'NONE', #231, #333 ) ;
#178 = APPROVAL ( #238, 'UNSPECIFIED' ) ;
#179 = CIRCLE ( 'NONE', #198, 10.00000000000000000 ) ;
#180 = EDGE_CURVE ( 'NONE', #54, #194, #326, .T. ) ;
#181 = VERTEX_POINT ( 'NONE', #273 ) ;
#182 = UNCERTAINTY_MEASURE_WITH_UNIT (LENGTH_MEASURE( 1.000000000000000082E-05 ), #208, 'distance_accuracy_value', 'NONE');
#183 = EDGE_LOOP ( 'NONE', ( #155, #195 ) ) ;
#184 = DIRECTION ( 'NONE',  ( 0.000000000000000000, 0.000000000000000000, 1.000000000000000000 ) ) ;
#185 = ORIENTED_EDGE ( 'NONE', *, *, #260, .T. ) ;
#186 = DIRECTION ( 'NONE',  ( -0.000000000000000000, 0.000000000000000000, 1.000000000000000000 ) ) ;
#187 = ORIENTED_EDGE ( 'NONE', *, *, #35, .T. ) ;
#188 = AXIS2_PLACEMENT_3D ( 'NONE', #93, #237, #114 ) ;
#189 = APPLICATION_PROTOCOL_DEFINITION ( 'international standard', 'config_control_design', 1994, #28 ) ;
#190 = DATE_TIME_ROLE ( 'classification_date' ) ;
#191 = EDGE_CURVE ( 'NONE', #292, #146, #135, .T. ) ;
#192 = PERSON_AND_ORGANIZATION ( #324, #310 ) ;
#193 = SECURITY_CLASSIFICATION ( '', '', #131 ) ;
#194 = VERTEX_POINT ( 'NONE', #202 ) ;
#195 = ORIENTED_EDGE ( 'NONE', *, *, #191, .F. ) ;
#196 = AXIS2_PLACEMENT_3D ( 'NONE', #221, #215, #81 ) ;
#197 = CARTESIAN_POINT ( 'NONE',  ( -3.000000000000000000, 10.00000000000000000, 0.000000000000000000 ) ) ;
#198 = AXIS2_PLACEMENT_3D ( 'NONE', #257, #280, #46 ) ;
#199 = LINE ( 'NONE', #201, #158 ) ;
#200 = CARTESIAN_POINT ( 'NONE',  ( -2.500000000000000444, 0.000000000000000000, 0.000000000000000000 ) ) ;
#201 = CARTESIAN_POINT ( 'NONE',  ( -1.614212418857619014, 0.000000000000000000, 10.00000000000000000 ) ) ;
#202 = CARTESIAN_POINT ( 'NONE',  ( -3.000000000000000000, 1.555301434917138433E-15, -12.69999999999999929 ) ) ;
#203 = CARTESIAN_POINT ( 'NONE',  ( 2.500000000000000888, 1.224646799147353256E-15, -10.00000000000000000 ) ) ;
#204 = CARTESIAN_POINT ( 'NONE',  ( 2.999999999999999112, 0.000000000000000000, 10.00000000000000000 ) ) ;
#205 = EDGE_CURVE ( 'NONE', #181, #292, #60, .T. ) ;
#206 = ORIENTED_EDGE ( 'NONE', *, *, #267, .F. ) ;
#207 = DIRECTION ( 'NONE',  ( -1.000000000000000000, -0.000000000000000000, -0.000000000000000000 ) ) ;
#208 =( LENGTH_UNIT ( ) NAMED_UNIT ( * ) SI_UNIT ( .MILLI., .METRE. ) );
#209 = PERSON_AND_ORGANIZATION_ROLE ( 'creator' ) ;
#210 = ORIENTED_EDGE ( 'NONE', *, *, #191, .T. ) ;
#211 = ADVANCED_FACE ( 'NONE', ( #12 ), #111, .F. ) ;
#212 = CALENDAR_DATE ( 2020, 22, 12 ) ;
#213 = EDGE_CURVE ( 'NONE', #146, #292, #167, .T. ) ;
#214 = ORIENTED_EDGE ( 'NONE', *, *, #267, .T. ) ;
#215 = DIRECTION ( 'NONE',  ( 1.000000000000000000, 0.000000000000000000, 0.000000000000000000 ) ) ;
#216 = PRODUCT_DEFINITION ( 'UNKNOWN', '', #61, #98 ) ;
#217 = APPROVAL_DATE_TIME ( #99, #150 ) ;
#218 = EDGE_LOOP ( 'NONE', ( #287, #25, #41, #121 ) ) ;
#219 = CIRCLE ( 'NONE', #117, 10.00000000000000000 ) ;
#220 = APPROVAL_PERSON_ORGANIZATION ( #76, #178, #32 ) ;
#221 = CARTESIAN_POINT ( 'NONE',  ( -2.500000000000000444, 0.000000000000000000, 0.000000000000000000 ) ) ;
#222 = ORIENTED_EDGE ( 'NONE', *, *, #35, .F. ) ;
#223 = ORIENTED_EDGE ( 'NONE', *, *, #180, .F. ) ;
#224 = ORIENTED_EDGE ( 'NONE', *, *, #205, .T. ) ;
#225 = DIRECTION ( 'NONE',  ( -1.000000000000000000, -0.000000000000000000, -0.000000000000000000 ) ) ;
#226 = CC_DESIGN_APPROVAL ( #247, ( #193 ) ) ;
#227 = DIRECTION ( 'NONE',  ( 1.000000000000000000, 0.000000000000000000, 0.000000000000000000 ) ) ;
#228 = ADVANCED_FACE ( 'NONE', ( #16, #116 ), #176, .F. ) ;
#229 = ORIENTED_EDGE ( 'NONE', *, *, #168, .T. ) ;
#230 = CARTESIAN_POINT ( 'NONE',  ( 2.500000000000000888, 0.000000000000000000, 0.000000000000000000 ) ) ;
#231 = CARTESIAN_POINT ( 'NONE',  ( -1.614212418857619014, 1.224646799147353256E-15, -10.00000000000000000 ) ) ;
#232 = CARTESIAN_POINT ( 'NONE',  ( -1.614212418857619014, 0.000000000000000000, 0.000000000000000000 ) ) ;
#233 = ADVANCED_FACE ( 'NONE', ( #306 ), #282, .T. ) ;
#234 = LOCAL_TIME ( 17, 8, 31.00000000000000000, #299 ) ;
#235 = EDGE_LOOP ( 'NONE', ( #317, #18, #73, #66 ) ) ;
#236 = MANIFOLD_SOLID_BREP ( 'Ðý×', #132 ) ;
#237 = DIRECTION ( 'NONE',  ( -1.000000000000000000, 0.000000000000000000, -0.000000000000000000 ) ) ;
#238 = APPROVAL_STATUS ( 'not_yet_approved' ) ;
#239 = AXIS2_PLACEMENT_3D ( 'NONE', #301, #304, #110 ) ;
#240 = CARTESIAN_POINT ( 'NONE',  ( -1.614212418857619014, 0.000000000000000000, 10.00000000000000000 ) ) ;
#241 = CALENDAR_DATE ( 2020, 22, 12 ) ;
#242 = CARTESIAN_POINT ( 'NONE',  ( 2.999999999999999112, 0.000000000000000000, 0.000000000000000000 ) ) ;
#243 = PERSON_AND_ORGANIZATION ( #324, #310 ) ;
#244 = CARTESIAN_POINT ( 'NONE',  ( 2.999999999999999112, 0.000000000000000000, 0.000000000000000000 ) ) ;
#245 = APPROVAL_STATUS ( 'not_yet_approved' ) ;
#246 = ORIENTED_EDGE ( 'NONE', *, *, #14, .T. ) ;
#247 = APPROVAL ( #125, 'UNSPECIFIED' ) ;
#248 = VECTOR ( 'NONE', #166, 1000.000000000000000 ) ;
#249 = CARTESIAN_POINT ( 'NONE',  ( -1.614212418857619014, 1.224646799147353256E-15, -10.00000000000000000 ) ) ;
#250 = DIRECTION ( 'NONE',  ( -1.000000000000000000, -0.000000000000000000, -0.000000000000000000 ) ) ;
#251 = ORIENTED_EDGE ( 'NONE', *, *, #164, .F. ) ;
#252 = CARTESIAN_POINT ( 'NONE',  ( -1.614212418857619014, 0.000000000000000000, 0.000000000000000000 ) ) ;
#253 = ADVANCED_FACE ( 'NONE', ( #278 ), #65, .F. ) ;
#254 =( NAMED_UNIT ( * ) PLANE_ANGLE_UNIT ( ) SI_UNIT ( $, .RADIAN. ) );
#255 = EDGE_CURVE ( 'NONE', #112, #262, #177, .T. ) ;
#256 = VERTEX_POINT ( 'NONE', #68 ) ;
#257 = CARTESIAN_POINT ( 'NONE',  ( 2.500000000000000888, 0.000000000000000000, 0.000000000000000000 ) ) ;
#258 = CARTESIAN_POINT ( 'NONE',  ( -3.000000000000000000, 0.000000000000000000, 0.000000000000000000 ) ) ;
#259 = CC_DESIGN_PERSON_AND_ORGANIZATION_ASSIGNMENT ( #334, #53, ( #311 ) ) ;
#260 = EDGE_CURVE ( 'NONE', #52, #54, #270, .T. ) ;
#261 = CARTESIAN_POINT ( 'NONE',  ( 0.000000000000000000, 0.000000000000000000, 0.000000000000000000 ) ) ;
#262 = VERTEX_POINT ( 'NONE', #203 ) ;
#263 = MECHANICAL_CONTEXT ( 'NONE', #28, 'mechanical' ) ;
#264 = ORIENTED_EDGE ( 'NONE', *, *, #170, .F. ) ;
#265 = PERSON_AND_ORGANIZATION ( #324, #310 ) ;
#266 = CC_DESIGN_PERSON_AND_ORGANIZATION_ASSIGNMENT ( #265, #31, ( #61 ) ) ;
#267 = EDGE_CURVE ( 'NONE', #256, #262, #179, .T. ) ;
#268 = CALENDAR_DATE ( 2020, 22, 12 ) ;
#269 = VERTEX_POINT ( 'NONE', #204 ) ;
#270 = CIRCLE ( 'NONE', #141, 12.69999999999999929 ) ;
#271 = CARTESIAN_POINT ( 'NONE',  ( 2.999999999999999112, 1.224646799147353256E-15, -10.00000000000000000 ) ) ;
#272 = CALENDAR_DATE ( 2020, 22, 12 ) ;
#273 = CARTESIAN_POINT ( 'NONE',  ( -2.500000000000000444, 1.224646799147353256E-15, -10.00000000000000000 ) ) ;
#274 = DIRECTION ( 'NONE',  ( 0.000000000000000000, 0.000000000000000000, 1.000000000000000000 ) ) ;
#275 = CC_DESIGN_SECURITY_CLASSIFICATION ( #193, ( #61 ) ) ;
#276 = DIRECTION ( 'NONE',  ( -1.000000000000000000, -0.000000000000000000, -0.000000000000000000 ) ) ;
#277 = FACE_OUTER_BOUND ( 'NONE', #297, .T. ) ;
#278 = FACE_OUTER_BOUND ( 'NONE', #157, .T. ) ;
#279 = AXIS2_PLACEMENT_3D ( 'NONE', #107, #225, #274 ) ;
#280 = DIRECTION ( 'NONE',  ( -1.000000000000000000, -0.000000000000000000, -0.000000000000000000 ) ) ;
#281 = CC_DESIGN_APPROVAL ( #178, ( #216 ) ) ;
#282 = CYLINDRICAL_SURFACE ( 'NONE', #313, 12.69999999999999929 ) ;
#283 = DIRECTION ( 'NONE',  ( -1.000000000000000000, 0.000000000000000000, -0.000000000000000000 ) ) ;
#284 = ORIENTED_EDGE ( 'NONE', *, *, #322, .T. ) ;
#285 = ADVANCED_FACE ( 'NONE', ( #308 ), #67, .F. ) ;
#286 = AXIS2_PLACEMENT_3D ( 'NONE', #78, #27, #128 ) ;
#287 = ORIENTED_EDGE ( 'NONE', *, *, #19, .F. ) ;
#288 = PERSON_AND_ORGANIZATION ( #324, #310 ) ;
#289 = ORIENTED_EDGE ( 'NONE', *, *, #19, .T. ) ;
#290 = VERTEX_POINT ( 'NONE', #47 ) ;
#291 = AXIS2_PLACEMENT_3D ( 'NONE', #45, #283, #186 ) ;
#292 = VERTEX_POINT ( 'NONE', #147 ) ;
#293 = COORDINATED_UNIVERSAL_TIME_OFFSET ( 8, 0, .AHEAD. ) ;
#294 = CARTESIAN_POINT ( 'NONE',  ( 3.000000000000000000, 1.555301434917138433E-15, -12.69999999999999929 ) ) ;
#295 = DIRECTION ( 'NONE',  ( 0.000000000000000000, 0.000000000000000000, 1.000000000000000000 ) ) ;
#296 = CARTESIAN_POINT ( 'NONE',  ( 3.000000000000000000, 0.000000000000000000, 12.69999999999999929 ) ) ;
#297 = EDGE_LOOP ( 'NONE', ( #223, #246, #134, #264 ) ) ;
#298 = CIRCLE ( 'NONE', #196, 10.00000000000000000 ) ;
#299 = COORDINATED_UNIVERSAL_TIME_OFFSET ( 8, 0, .AHEAD. ) ;
#300 = CARTESIAN_POINT ( 'NONE',  ( -3.000000000000000444, 0.000000000000000000, 10.00000000000000000 ) ) ;
#301 = CARTESIAN_POINT ( 'NONE',  ( -3.000000000000000000, 0.000000000000000000, 0.000000000000000000 ) ) ;
#302 = ADVANCED_BREP_SHAPE_REPRESENTATION ( 'Q-AZHWP-20-488-M', ( #236, #44 ), #173 ) ;
#303 = PLANE ( 'NONE',  #140 ) ;
#304 = DIRECTION ( 'NONE',  ( -1.000000000000000000, -0.000000000000000000, -0.000000000000000000 ) ) ;
#305 = DIRECTION ( 'NONE',  ( -1.000000000000000000, -0.000000000000000000, -0.000000000000000000 ) ) ;
#306 = FACE_OUTER_BOUND ( 'NONE', #106, .T. ) ;
#307 = AXIS2_PLACEMENT_3D ( 'NONE', #230, #84, #143 ) ;
#308 = FACE_OUTER_BOUND ( 'NONE', #1, .T. ) ;
#309 = CIRCLE ( 'NONE', #109, 10.00000000000000000 ) ;
#310 = ORGANIZATION ( 'UNSPECIFIED', 'UNSPECIFIED', '' ) ;
#311 = PRODUCT ( 'Q-AZHWP-20-488-M', 'Q-AZHWP-20-488-M', '', ( #263 ) ) ;
#312 = EDGE_LOOP ( 'NONE', ( #59, #314 ) ) ;
#313 = AXIS2_PLACEMENT_3D ( 'NONE', #50, #207, #184 ) ;
#314 = ORIENTED_EDGE ( 'NONE', *, *, #14, .F. ) ;
#315 = EDGE_LOOP ( 'NONE', ( #284, #15 ) ) ;
#316 = PERSON_AND_ORGANIZATION ( #324, #310 ) ;
#317 = ORIENTED_EDGE ( 'NONE', *, *, #205, .F. ) ;
#318 = AXIS2_PLACEMENT_3D ( 'NONE', #252, #332, #23 ) ;
#319 = ORIENTED_EDGE ( 'NONE', *, *, #156, .F. ) ;
#320 = LINE ( 'NONE', #240, #42 ) ;
#321 = EDGE_LOOP ( 'NONE', ( #151, #289 ) ) ;
#322 = EDGE_CURVE ( 'NONE', #115, #194, #83, .T. ) ;
#323 = FACE_BOUND ( 'NONE', #183, .T. ) ;
#324 = PERSON ( 'UNSPECIFIED', 'UNSPECIFIED', 'UNSPECIFIED', ('UNSPECIFIED'), ('UNSPECIFIED'), ('UNSPECIFIED') ) ;
#325 = DIRECTION ( 'NONE',  ( 0.000000000000000000, 0.000000000000000000, -1.000000000000000000 ) ) ;
#326 = LINE ( 'NONE', #85, #161 ) ;
#327 = CC_DESIGN_PERSON_AND_ORGANIZATION_ASSIGNMENT ( #316, #209, ( #61 ) ) ;
#328 = SHAPE_DEFINITION_REPRESENTATION ( #43, #302 ) ;
#329 = LOCAL_TIME ( 17, 8, 31.00000000000000000, #58 ) ;
#330 = DIRECTION ( 'NONE',  ( -1.000000000000000000, -0.000000000000000000, -0.000000000000000000 ) ) ;
#331 = DIRECTION ( 'NONE',  ( -1.000000000000000000, -0.000000000000000000, -0.000000000000000000 ) ) ;
#332 = DIRECTION ( 'NONE',  ( -1.000000000000000000, -0.000000000000000000, -0.000000000000000000 ) ) ;
#333 = VECTOR ( 'NONE', #91, 1000.000000000000000 ) ;
#334 = PERSON_AND_ORGANIZATION ( #324, #310 ) ;
#335 = EDGE_LOOP ( 'NONE', ( #222, #251 ) ) ;
ENDSEC;
END-ISO-10303-21;
